  0
SECTION
  2
HEADER
  9
$ACADVER
  1
AC1015
  9
$ACADMAINTVER
 70
     6
  9
$DWGCODEPAGE
  3
ANSI_1254
  9
$INSBASE
 10
0.0
 20
0.0
 30
0.0
  9
$EXTMIN
 10
0.0
 20
0.0
 30
0.0
  9
$EXTMAX
 10
279.4
 20
215.9
 30
0.0
  9
$LIMMIN
 10
0.0
 20
0.0
  9
$LIMMAX
 10
279.4
 20
215.9
  9
$ORTHOMODE
 70
     0
  9
$REGENMODE
 70
     1
  9
$FILLMODE
 70
     1
  9
$QTEXTMODE
 70
     0
  9
$MIRRTEXT
 70
     1
  9
$LTSCALE
 40
1.0
  9
$ATTMODE
 70
     1
  9
$TEXTSIZE
 40
3.5
  9
$TRACEWID
 40
1.0
  9
$TEXTSTYLE
  7
Standard
  9
$CLAYER
  8
0
  9
$CELTYPE
  6
ByLayer
  9
$CECOLOR
 62
   256
  9
$CELTSCALE
 40
1.0
  9
$DISPSILH
 70
     0
  9
$DIMSCALE
 40
1.0
  9
$DIMASZ
 40
3.5
  9
$DIMEXO
 40
1.0
  9
$DIMDLI
 40
3.75
  9
$DIMRND
 40
0.0
  9
$DIMDLE
 40
0.0
  9
$DIMEXE
 40
1.0
  9
$DIMTP
 40
0.0
  9
$DIMTM
 40
0.0
  9
$DIMTXT
 40
3.5
  9
$DIMCEN
 40
2.5
  9
$DIMTSZ
 40
0.0
  9
$DIMTOL
 70
     0
  9
$DIMLIM
 70
     0
  9
$DIMTIH
 70
     1
  9
$DIMTOH
 70
     1
  9
$DIMSE1
 70
     0
  9
$DIMSE2
 70
     0
  9
$DIMTAD
 70
     1
  9
$DIMZIN
 70
     0
  9
$DIMBLK
  1

  9
$DIMASO
 70
     1
  9
$DIMSHO
 70
     1
  9
$DIMPOST
  1

  9
$DIMAPOST
  1

  9
$DIMALT
 70
     0
  9
$DIMALTD
 70
     3
  9
$DIMALTF
 40
0.0393700787
  9
$DIMLFAC
 40
1.0
  9
$DIMTOFL
 70
     1
  9
$DIMTVP
 40
0.0
  9
$DIMTIX
 70
     0
  9
$DIMSOXD
 70
     0
  9
$DIMSAH
 70
     0
  9
$DIMBLK1
  1

  9
$DIMBLK2
  1

  9
$DIMSTYLE
  2
ISO-25
  9
$DIMCLRD
 70
     0
  9
$DIMCLRE
 70
     0
  9
$DIMCLRT
 70
     0
  9
$DIMTFAC
 40
1.0
  9
$DIMGAP
 40
1.524
  9
$DIMJUST
 70
     0
  9
$DIMSD1
 70
     0
  9
$DIMSD2
 70
     0
  9
$DIMTOLJ
 70
     0
  9
$DIMTZIN
 70
     0
  9
$DIMALTZ
 70
     0
  9
$DIMALTTZ
 70
     0
  9
$DIMUPT
 70
     0
  9
$DIMDEC
 70
     2
  9
$DIMTDEC
 70
     2
  9
$DIMALTU
 70
     2
  9
$DIMALTTD
 70
     3
  9
$DIMTXSTY
  7
Standard
  9
$DIMAUNIT
 70
     0
  9
$DIMADEC
 70
     2
  9
$DIMALTRND
 40
0.0
  9
$DIMAZIN
 70
     0
  9
$DIMDSEP
 70
    44
  9
$DIMATFIT
 70
     3
  9
$DIMFRAC
 70
     0
  9
$DIMLDRBLK
  1

  9
$DIMLUNIT
 70
     2
  9
$DIMLWD
 70
    -2
  9
$DIMLWE
 70
    -2
  9
$DIMTMOVE
 70
     0
  9
$LUNITS
 70
     2
  9
$LUPREC
 70
     2
  9
$SKETCHINC
 40
1.0
  9
$FILLETRAD
 40
10.0
  9
$AUNITS
 70
     0
  9
$AUPREC
 70
     2
  9
$MENU
  1
.
  9
$ELEVATION
 40
0.0
  9
$PELEVATION
 40
0.0
  9
$THICKNESS
 40
0.0
  9
$LIMCHECK
 70
     0
  9
$CHAMFERA
 40
0.0
  9
$CHAMFERB
 40
0.0
  9
$CHAMFERC
 40
0.0
  9
$CHAMFERD
 40
0.0
  9
$SKPOLY
 70
     0
  9
$TDCREATE
 40
2459935.700574456
  9
$TDUCREATE
 40
2459935.575574456
  9
$TDUPDATE
 40
2459935.700574629
  9
$TDUUPDATE
 40
2459935.575574629
  9
$TDINDWG
 40
0.0000000116
  9
$TDUSRTIMER
 40
0.0000000116
  9
$USRTIMER
 70
     1
  9
$ANGBASE
 50
0.0
  9
$ANGDIR
 70
     0
  9
$PDMODE
 70
     0
  9
$PDSIZE
 40
-1.0
  9
$PLINEWID
 40
0.0
  9
$SPLFRAME
 70
     0
  9
$SPLINETYPE
 70
     6
  9
$SPLINESEGS
 70
     8
  9
$HANDSEED
  5
D2
  9
$SURFTAB1
 70
     6
  9
$SURFTAB2
 70
     6
  9
$SURFTYPE
 70
     6
  9
$SURFU
 70
     6
  9
$SURFV
 70
     6
  9
$UCSBASE
  2

  9
$UCSNAME
  2

  9
$UCSORG
 10
0.0
 20
0.0
 30
0.0
  9
$UCSXDIR
 10
1.0
 20
0.0
 30
0.0
  9
$UCSYDIR
 10
0.0
 20
1.0
 30
0.0
  9
$UCSORTHOREF
  2

  9
$UCSORTHOVIEW
 70
     0
  9
$UCSORGTOP
 10
0.0
 20
0.0
 30
0.0
  9
$UCSORGBOTTOM
 10
0.0
 20
0.0
 30
0.0
  9
$UCSORGLEFT
 10
0.0
 20
0.0
 30
0.0
  9
$UCSORGRIGHT
 10
0.0
 20
0.0
 30
0.0
  9
$UCSORGFRONT
 10
0.0
 20
0.0
 30
0.0
  9
$UCSORGBACK
 10
0.0
 20
0.0
 30
0.0
  9
$PUCSBASE
  2

  9
$PUCSNAME
  2

  9
$PUCSORG
 10
0.0
 20
0.0
 30
0.0
  9
$PUCSXDIR
 10
1.0
 20
0.0
 30
0.0
  9
$PUCSYDIR
 10
0.0
 20
1.0
 30
0.0
  9
$PUCSORTHOREF
  2

  9
$PUCSORTHOVIEW
 70
     0
  9
$PUCSORGTOP
 10
0.0
 20
0.0
 30
0.0
  9
$PUCSORGBOTTOM
 10
0.0
 20
0.0
 30
0.0
  9
$PUCSORGLEFT
 10
0.0
 20
0.0
 30
0.0
  9
$PUCSORGRIGHT
 10
0.0
 20
0.0
 30
0.0
  9
$PUCSORGFRONT
 10
0.0
 20
0.0
 30
0.0
  9
$PUCSORGBACK
 10
0.0
 20
0.0
 30
0.0
  9
$USERI1
 70
     0
  9
$USERI2
 70
     0
  9
$USERI3
 70
     0
  9
$USERI4
 70
     0
  9
$USERI5
 70
     0
  9
$USERR1
 40
0.0
  9
$USERR2
 40
0.0
  9
$USERR3
 40
0.0
  9
$USERR4
 40
0.0
  9
$USERR5
 40
0.0
  9
$WORLDVIEW
 70
     1
  9
$SHADEDGE
 70
     3
  9
$SHADEDIF
 70
    70
  9
$TILEMODE
 70
     1
  9
$MAXACTVP
 70
    64
  9
$PINSBASE
 10
0.0
 20
0.0
 30
0.0
  9
$PLIMCHECK
 70
     0
  9
$PEXTMIN
 10
1.0000000000E+20
 20
1.0000000000E+20
 30
1.0000000000E+20
  9
$PEXTMAX
 10
-1.0000000000E+20
 20
-1.0000000000E+20
 30
-1.0000000000E+20
  9
$PLIMMIN
 10
0.0
 20
0.0
  9
$PLIMMAX
 10
420.0
 20
297.0
  9
$UNITMODE
 70
     0
  9
$VISRETAIN
 70
     1
  9
$PLINEGEN
 70
     0
  9
$PSLTSCALE
 70
     1
  9
$TREEDEPTH
 70
  3020
  9
$CMLSTYLE
  2
Standard
  9
$CMLJUST
 70
     0
  9
$CMLSCALE
 40
20.0
  9
$PROXYGRAPHICS
 70
     1
  9
$MEASUREMENT
 70
     1
  9
$CELWEIGHT
370
    -1
  9
$ENDCAPS
280
     0
  9
$JOINSTYLE
280
     0
  9
$LWDISPLAY
290
     1
  9
$INSUNITS
 70
     4
  9
$HYPERLINKBASE
  1

  9
$STYLESHEET
  1

  9
$XEDIT
290
     1
  9
$CEPSNTYPE
380
     0
  9
$PSTYLEMODE
290
     1
  9
$FINGERPRINTGUID
  2
{9547ce3c-6281-4170-8ac8-735935d32c63}
  9
$VERSIONGUID
  2
{FAEB1C32-E019-11D5-929B-00C0DF256EC4}
  9
$EXTNAMES
290
     1
  9
$PSVPSCALE
 40
0.0
  9
$OLESTARTUP
290
     0
  0
ENDSEC
  0
SECTION
  2
CLASSES
  0
CLASS
  1
ACDBDICTIONARYWDFLT
  2
AcDbDictionaryWithDefault
  3
ObjectDBX Classes
 90
        0
280
     0
281
     0
  0
CLASS
  1
VISUALSTYLE
  2
AcDbVisualStyle
  3
ObjectDBX Classes
 90
     4095
280
     0
281
     0
  0
CLASS
  1
MATERIAL
  2
AcDbMaterial
  3
ObjectDBX Classes
 90
     1153
280
     0
281
     0
  0
CLASS
  1
SCALE
  2
AcDbScale
  3
ObjectDBX Classes
 90
     1153
280
     0
281
     0
  0
CLASS
  1
TABLESTYLE
  2
AcDbTableStyle
  3
ObjectDBX Classes
 90
     4095
280
     0
281
     0
  0
CLASS
  1
MLEADERSTYLE
  2
AcDbMLeaderStyle
  3
ACDB_MLEADERSTYLE_CLASS
 90
     4095
280
     0
281
     0
  0
CLASS
  1
SUN
  2
AcDbSun
  3
SCENEOE
 90
     1153
280
     0
281
     0
  0
CLASS
  1
ACDBPLACEHOLDER
  2
AcDbPlaceHolder
  3
ObjectDBX Classes
 90
        0
280
     0
281
     0
  0
CLASS
  1
LAYOUT
  2
AcDbLayout
  3
ObjectDBX Classes
 90
        0
280
     0
281
     0
  0
ENDSEC
  0
SECTION
  2
TABLES
  0
TABLE
  2
VPORT
  5
8
330
0
100
AcDbSymbolTable
 70
     1
  0
VPORT
  5
29
330
8
100
AcDbSymbolTableRecord
100
AcDbViewportTableRecord
  2
*Active
 70
     0
 10
0.0
 20
0.0
 11
1.0
 21
1.0
 12
139.7
 22
107.95
 13
0.0
 23
0.0
 14
10.0
 24
10.0
 15
10.0
 25
10.0
 16
0.0
 26
0.0
 36
1.0
 17
0.0
 27
0.0
 37
0.0
 40
215.9
 41
1.2941176471
 42
50.0
 43
0.0
 44
0.0
 50
0.0
 51
0.0
 71
     0
 72
  2000
 73
     1
 74
     3
 75
     0
 76
     0
 77
     0
 78
     0
281
     0
 65
     1
110
0.0
120
0.0
130
0.0
111
1.0
121
0.0
131
0.0
112
0.0
122
1.0
132
0.0
 79
     0
146
0.0
  0
ENDTAB
  0
TABLE
  2
LTYPE
  5
5
330
0
100
AcDbSymbolTable
 70
     6
  0
LTYPE
  5
14
330
5
100
AcDbSymbolTableRecord
100
AcDbLinetypeTableRecord
  2
ByBlock
 70
     0
  3

 72
    65
 73
     0
 40
0.0
  0
LTYPE
  5
15
330
5
100
AcDbSymbolTableRecord
100
AcDbLinetypeTableRecord
  2
ByLayer
 70
     0
  3

 72
    65
 73
     0
 40
0.0
  0
LTYPE
  5
16
330
5
100
AcDbSymbolTableRecord
100
AcDbLinetypeTableRecord
  2
Continuous
 70
     0
  3
Solid line
 72
    65
 73
     0
 40
0.0
  0
LTYPE
  5
6E
330
5
100
AcDbSymbolTableRecord
100
AcDbLinetypeTableRecord
  2
HIDDEN
 70
     0
  3
Hidden __ __ __ __ __ __ __ __ __ __ __ __ __ __
 72
    65
 73
     2
 40
1.905
 49
1.27
 74
     0
 49
-0.635
 74
     0
  0
LTYPE
  5
6F
330
5
100
AcDbSymbolTableRecord
100
AcDbLinetypeTableRecord
  2
PHANTOM
 70
     0
  3
Phantom ______  __  __  ______  __  __  ______
 72
    65
 73
     6
 40
12.7
 49
6.35
 74
     0
 49
-1.27
 74
     0
 49
1.27
 74
     0
 49
-1.27
 74
     0
 49
1.27
 74
     0
 49
-1.27
 74
     0
  0
LTYPE
  5
70
330
5
100
AcDbSymbolTableRecord
100
AcDbLinetypeTableRecord
  2
CENTER
 70
     0
  3
Center ____ _ ____ _ ____ _ ____ _ ____ _ ____
 72
    65
 73
     4
 40
10.16
 49
6.35
 74
     0
 49
-1.27
 74
     0
 49
1.27
 74
     0
 49
-1.27
 74
     0
  0
LTYPE
  5
71
330
5
100
AcDbSymbolTableRecord
100
AcDbLinetypeTableRecord
  2
CENTERX2
 70
     0
  3
Center (2x) ________  __  ________  __  _____
 72
    65
 73
     4
 40
20.32
 49
12.7
 74
     0
 49
-2.54
 74
     0
 49
2.54
 74
     0
 49
-2.54
 74
     0
  0
LTYPE
  5
72
330
5
100
AcDbSymbolTableRecord
100
AcDbLinetypeTableRecord
  2
DOT2
 70
     0
  3
Dot (.5x) ........................................
 72
    65
 73
     2
 40
0.635
 49
0.0
 74
     0
 49
-0.635
 74
     0
  0
ENDTAB
  0
TABLE
  2
LAYER
  5
2
330
0
100
AcDbSymbolTable
 70
    17
  0
LAYER
  5
10
330
2
100
AcDbSymbolTableRecord
100
AcDbLayerTableRecord
  2
0
 70
     0
 62
     7
  6
Continuous
370
    -3
390
F
  0
LAYER
  5
73
330
2
100
AcDbSymbolTableRecord
100
AcDbLayerTableRecord
  2
FORMAT
 70
     0
 62
     7
  6
Continuous
370
    -3
390
F
  0
LAYER
  5
74
330
2
100
AcDbSymbolTableRecord
100
AcDbLayerTableRecord
  2
YARDIMCI_GEOMETRI
 70
     0
 62
    -6
  6
Continuous
290
     0
370
    -3
390
F
  0
LAYER
  5
75
330
2
100
AcDbSymbolTableRecord
100
AcDbLayerTableRecord
  2
SAYFA_CERCEVESI
 70
     0
 62
     7
  6
Continuous
370
    25
390
F
  0
LAYER
  5
76
330
2
100
AcDbSymbolTableRecord
100
AcDbLayerTableRecord
  2
ANTET
 70
     0
 62
     7
  6
Continuous
370
    -3
390
F
  0
LAYER
  5
77
330
2
100
AcDbSymbolTableRecord
100
AcDbLayerTableRecord
  2
OLCU
 70
     0
 62
   150
  6
Continuous
370
    -3
390
F
  0
LAYER
  5
78
330
2
100
AcDbSymbolTableRecord
100
AcDbLayerTableRecord
  2
METIN
 70
     0
 62
    96
  6
Continuous
370
    -3
390
F
  0
LAYER
  5
79
330
2
100
AcDbSymbolTableRecord
100
AcDbLayerTableRecord
  2
BALON
 70
     0
 62
     5
  6
Continuous
370
    -3
390
F
  0
LAYER
  5
7A
330
2
100
AcDbSymbolTableRecord
100
AcDbLayerTableRecord
  2
VURGU
 70
     0
 62
     7
  6
Continuous
370
    -3
390
F
  0
LAYER
  5
7B
330
2
100
AcDbSymbolTableRecord
100
AcDbLayerTableRecord
  2
SILIK
 70
     0
 62
     7
  6
Continuous
370
    -3
390
F
  0
LAYER
  5
7C
330
2
100
AcDbSymbolTableRecord
100
AcDbLayerTableRecord
  2
MODEL
 70
     0
 62
     7
  6
Continuous
370
    -3
390
F
  0
LAYER
  5
7D
330
2
100
AcDbSymbolTableRecord
100
AcDbLayerTableRecord
  2
DETAYLANDıRMA
 70
     0
 62
   190
  6
Continuous
370
    -3
390
F
  0
LAYER
  5
7E
330
2
100
AcDbSymbolTableRecord
100
AcDbLayerTableRecord
  2
TOLERANS
 70
     0
 62
   230
  6
Continuous
370
    -3
390
F
  0
LAYER
  5
7F
330
2
100
AcDbSymbolTableRecord
100
AcDbLayerTableRecord
  2
MERKEZ_CIZGILERI
 70
     0
 62
    30
  6
Continuous
370
    -3
390
F
  0
LAYER
  5
80
330
2
100
AcDbSymbolTableRecord
100
AcDbLayerTableRecord
  2
KESIT-DETAY_CIZGILERI
 70
     0
 62
     7
  6
Continuous
370
    -3
390
F
  0
LAYER
  5
81
330
2
100
AcDbSymbolTableRecord
100
AcDbLayerTableRecord
  2
\U+041E\U+0421\U+0415\U+0412\U+042B\U+0415
 70
     0
 62
     7
  6
Continuous
370
    -3
390
F
  0
LAYER
  5
82
330
2
100
AcDbSymbolTableRecord
100
AcDbLayerTableRecord
  2
\U+0412\U+041E\U+0414\U+042F\U+041D\U+042B\U+0415_\U+0417\U+041D\U+0410\U+041A\U+0418
 70
     0
 62
    11
  6
Continuous
370
    -3
390
F
  0
ENDTAB
  0
TABLE
  2
STYLE
  5
3
330
0
100
AcDbSymbolTable
 70
     1
  0
STYLE
  5
11
330
3
100
AcDbSymbolTableRecord
100
AcDbTextStyleTableRecord
  2
Standard
 70
     0
 40
0.0
 41
1.0
 50
0.0
 71
     0
 42
3.5
  3
txt
  4

  0
ENDTAB
  0
TABLE
  2
VIEW
  5
6
330
0
100
AcDbSymbolTable
 70
     0
  0
ENDTAB
  0
TABLE
  2
UCS
  5
7
330
0
100
AcDbSymbolTable
 70
     0
  0
ENDTAB
  0
TABLE
  2
APPID
  5
9
330
0
100
AcDbSymbolTable
 70
     1
  0
APPID
  5
12
330
9
100
AcDbSymbolTableRecord
100
AcDbRegAppTableRecord
  2
ACAD
 70
     0
  0
ENDTAB
  0
TABLE
  2
DIMSTYLE
  5
A
330
0
100
AcDbSymbolTable
 70
     1
100
AcDbDimStyleTable
  0
DIMSTYLE
105
27
330
A
100
AcDbSymbolTableRecord
100
AcDbDimStyleTableRecord
  2
ISO-25
 70
     0
 41
2.5
 42
0.625
 43
3.75
 44
1.25
 73
     0
 74
     0
 77
     1
 78
     8
140
2.5
141
2.5
143
0.0393700787
147
0.625
171
     3
172
     1
178
     0
271
     2
272
     2
274
     3
278
    44
283
     0
284
     8
340
11
  0
ENDTAB
  0
TABLE
  2
BLOCK_RECORD
  5
1
330
0
100
AcDbSymbolTable
 70
     3
  0
BLOCK_RECORD
  5
1F
330
1
100
AcDbSymbolTableRecord
100
AcDbBlockTableRecord
  2
*Model_Space
340
22
  0
BLOCK_RECORD
  5
1B
330
1
100
AcDbSymbolTableRecord
100
AcDbBlockTableRecord
  2
*Paper_Space
340
1E
  0
BLOCK_RECORD
  5
23
330
1
100
AcDbSymbolTableRecord
100
AcDbBlockTableRecord
  2
*Paper_Space0
340
26
  0
BLOCK_RECORD
  5
88
330
1
100
AcDbSymbolTableRecord
100
AcDbBlockTableRecord
  2
SW_CENTERMARKSYMBOL_0
340
0
102
{BLKREFS
331
93
102
}
  0
BLOCK_RECORD
  5
BB
330
1
100
AcDbSymbolTableRecord
100
AcDbBlockTableRecord
  2
SW_CENTERMARKSYMBOL_1
340
0
102
{BLKREFS
331
C6
102
}
  0
ENDTAB
  0
ENDSEC
  0
SECTION
  2
BLOCKS
  0
BLOCK
  5
20
330
1F
100
AcDbEntity
  8
0
100
AcDbBlockBegin
  2
*Model_Space
 70
     0
 10
0.0
 20
0.0
 30
0.0
  3
*Model_Space
  1

  0
ENDBLK
  5
21
330
1F
100
AcDbEntity
  8
0
100
AcDbBlockEnd
  0
BLOCK
  5
1C
330
1B
100
AcDbEntity
 67
     1
  8
0
100
AcDbBlockBegin
  2
*Paper_Space
 70
     0
 10
0.0
 20
0.0
 30
0.0
  3
*Paper_Space
  1

  0
ENDBLK
  5
1D
330
1B
100
AcDbEntity
 67
     1
  8
0
100
AcDbBlockEnd
  0
BLOCK
  5
24
330
23
100
AcDbEntity
  8
0
100
AcDbBlockBegin
  2
*Paper_Space0
 70
     0
 10
0.0
 20
0.0
 30
0.0
  3
*Paper_Space0
  1

  0
ENDBLK
  5
25
330
23
100
AcDbEntity
  8
0
100
AcDbBlockEnd
  0
BLOCK
  5
89
330
88
100
AcDbEntity
  8
0
100
AcDbBlockBegin
  2
SW_CENTERMARKSYMBOL_0
 70
     0
 10
0.0
 20
0.0
 30
0.0
  3
SW_CENTERMARKSYMBOL_0
  1

  0
LINE
  5
8B
330
88
100
AcDbEntity
  8
FORMAT
 62
     0
100
AcDbLine
 10
0.0
 20
0.0
 30
0.0
 11
0.0
 21
2.5
 31
0.0
  0
LINE
  5
8C
330
88
100
AcDbEntity
  8
FORMAT
 62
     0
100
AcDbLine
 10
0.0
 20
0.0
 30
0.0
 11
-2.5
 21
0.0
 31
0.0
  0
LINE
  5
8D
330
88
100
AcDbEntity
  8
FORMAT
 62
     0
100
AcDbLine
 10
0.0
 20
0.0
 30
0.0
 11
0.0
 21
-2.5
 31
0.0
  0
LINE
  5
8E
330
88
100
AcDbEntity
  8
FORMAT
 62
     0
100
AcDbLine
 10
0.0
 20
0.0
 30
0.0
 11
2.5
 21
0.0
 31
0.0
  0
LINE
  5
8F
330
88
100
AcDbEntity
  8
FORMAT
 62
     0
100
AcDbLine
 10
0.0
 20
5.0
 30
0.0
 11
0.0
 21
127.5
 31
0.0
  0
LINE
  5
90
330
88
100
AcDbEntity
  8
FORMAT
 62
     0
100
AcDbLine
 10
-5.0
 20
0.0
 30
0.0
 11
-127.5
 21
0.0
 31
0.0
  0
LINE
  5
91
330
88
100
AcDbEntity
  8
FORMAT
 62
     0
100
AcDbLine
 10
0.0
 20
-5.0
 30
0.0
 11
0.0
 21
-127.5
 31
0.0
  0
LINE
  5
92
330
88
100
AcDbEntity
  8
FORMAT
 62
     0
100
AcDbLine
 10
5.0
 20
0.0
 30
0.0
 11
127.5
 21
0.0
 31
0.0
  0
ENDBLK
  5
8A
330
88
100
AcDbEntity
  8
0
100
AcDbBlockEnd
  0
BLOCK
  5
BC
330
BB
100
AcDbEntity
  8
0
100
AcDbBlockBegin
  2
SW_CENTERMARKSYMBOL_1
 70
     0
 10
0.0
 20
0.0
 30
0.0
  3
SW_CENTERMARKSYMBOL_1
  1

  0
LINE
  5
BE
330
BB
100
AcDbEntity
  8
FORMAT
 62
     0
100
AcDbLine
 10
0.0
 20
0.0
 30
0.0
 11
0.0
 21
2.5
 31
0.0
  0
LINE
  5
BF
330
BB
100
AcDbEntity
  8
FORMAT
 62
     0
100
AcDbLine
 10
0.0
 20
0.0
 30
0.0
 11
-2.5
 21
0.0
 31
0.0
  0
LINE
  5
C0
330
BB
100
AcDbEntity
  8
FORMAT
 62
     0
100
AcDbLine
 10
0.0
 20
0.0
 30
0.0
 11
0.0
 21
-2.5
 31
0.0
  0
LINE
  5
C1
330
BB
100
AcDbEntity
  8
FORMAT
 62
     0
100
AcDbLine
 10
0.0
 20
0.0
 30
0.0
 11
2.5
 21
0.0
 31
0.0
  0
LINE
  5
C2
330
BB
100
AcDbEntity
  8
FORMAT
 62
     0
100
AcDbLine
 10
0.0
 20
5.0
 30
0.0
 11
0.0
 21
127.5
 31
0.0
  0
LINE
  5
C3
330
BB
100
AcDbEntity
  8
FORMAT
 62
     0
100
AcDbLine
 10
-5.0
 20
0.0
 30
0.0
 11
-127.5
 21
0.0
 31
0.0
  0
LINE
  5
C4
330
BB
100
AcDbEntity
  8
FORMAT
 62
     0
100
AcDbLine
 10
0.0
 20
-5.0
 30
0.0
 11
0.0
 21
-127.5
 31
0.0
  0
LINE
  5
C5
330
BB
100
AcDbEntity
  8
FORMAT
 62
     0
100
AcDbLine
 10
5.0
 20
0.0
 30
0.0
 11
127.5
 21
0.0
 31
0.0
  0
ENDBLK
  5
BD
330
BB
100
AcDbEntity
  8
0
100
AcDbBlockEnd
  0
ENDSEC
  0
SECTION
  2
ENTITIES
  0
LINE
  5
83
330
1F
100
AcDbEntity
  8
0
  6
Continuous
 62
     7
370
    25
100
AcDbLine
 10
30.1651882259
 20
-16.2465101526
 30
0.0
 11
322.1651882259
 21
-16.2465101526
 31
0.0
  0
LINE
  5
84
330
1F
100
AcDbEntity
  8
0
  6
Continuous
 62
     7
370
    25
100
AcDbLine
 10
322.1651882259
 20
233.7534898474
 30
0.0
 11
30.1651882259
 21
233.7534898474
 31
0.0
  0
CIRCLE
  5
85
330
1F
100
AcDbEntity
  8
0
  6
Continuous
 62
     7
370
    25
100
AcDbCircle
 10
30.1651882259
 20
108.7534898474
 30
0.0
 40
110.2
  0
CIRCLE
  5
86
330
1F
100
AcDbEntity
  8
0
  6
Continuous
 62
     7
370
    25
100
AcDbCircle
 10
30.1651882259
 20
108.7534898474
 30
0.0
 40
125.0
  0
LINE
  5
87
330
1F
100
AcDbEntity
  8
0
  6
Continuous
 62
     7
370
    25
100
AcDbLine
 10
322.1651882259
 20
233.7534898474
 30
0.0
 11
322.1651882259
 21
-16.2465101526
 31
0.0
  0
INSERT
  5
93
330
1F
100
AcDbEntity
  8
FORMAT
100
AcDbBlockReference
  2
SW_CENTERMARKSYMBOL_0
 10
30.1651882259
 20
108.7534898474
 30
0.0
  0
LINE
  5
94
330
1F
100
AcDbEntity
  8
0
  6
Continuous
 62
     7
370
    25
100
AcDbLine
 10
155.1651882259
 20
781.4471459789
 30
0.0
 11
155.1651882259
 21
951.4471459789
 31
0.0
  0
LINE
  5
95
330
1F
100
AcDbEntity
  8
0
  6
Continuous
 62
     7
370
    25
100
AcDbLine
 10
155.1651882259
 20
361.4471459789
 30
0.0
 11
155.1651882259
 21
531.4471459789
 31
0.0
  0
LINE
  5
96
330
1F
100
AcDbEntity
  8
0
  6
Continuous
 62
     7
370
    25
100
AcDbLine
 10
-94.8348117741
 20
951.4471459789
 30
0.0
 11
-94.8348117741
 21
361.4471459789
 31
0.0
  0
LINE
  5
97
330
1F
100
AcDbEntity
  8
0
  6
Continuous
 62
     7
370
    25
100
AcDbLine
 10
155.1651882259
 20
531.4471459789
 30
0.0
 11
322.1651882259
 21
531.4471459789
 31
0.0
  0
LINE
  5
98
330
1F
100
AcDbEntity
  8
0
  6
Continuous
 62
     7
370
    25
100
AcDbLine
 10
322.1651882259
 20
781.4471459789
 30
0.0
 11
155.1651882259
 21
781.4471459789
 31
0.0
  0
LINE
  5
99
330
1F
100
AcDbEntity
  8
0
  6
Continuous
 62
     7
370
    25
100
AcDbLine
 10
155.1651882259
 20
781.4471459789
 30
0.0
 11
30.1651882259
 21
656.4471459789
 31
0.0
  0
LINE
  5
9A
330
1F
100
AcDbEntity
  8
0
  6
Continuous
 62
     7
370
    25
100
AcDbLine
 10
30.1651882259
 20
656.4471459789
 30
0.0
 11
155.1651882259
 21
531.4471459789
 31
0.0
  0
LINE
  5
9B
330
1F
100
AcDbEntity
  8
0
  6
Continuous
 62
     7
370
    25
100
AcDbLine
 10
-94.8348117741
 20
951.4471459789
 30
0.0
 11
155.1651882259
 21
951.4471459789
 31
0.0
  0
LINE
  5
9C
330
1F
100
AcDbEntity
  8
0
  6
Continuous
 62
     7
370
    25
100
AcDbLine
 10
-94.8348117741
 20
361.4471459789
 30
0.0
 11
155.1651882259
 21
361.4471459789
 31
0.0
  0
LINE
  5
9D
330
1F
100
AcDbEntity
  8
0
  6
Continuous
 62
     7
370
    25
100
AcDbLine
 10
322.1651882259
 20
781.4471459789
 30
0.0
 11
322.1651882259
 21
531.4471459789
 31
0.0
  0
LINE
  5
9E
330
1F
100
AcDbEntity
  8
0
  6
Continuous
 62
     7
370
    25
100
AcDbLine
 10
770.7384338659
 20
-16.2465101526
 30
0.0
 11
1065.7384338659
 21
-16.2465101526
 31
0.0
  0
LINE
  5
9F
330
1F
100
AcDbEntity
  8
0
  6
Continuous
 62
     7
370
    25
100
AcDbLine
 10
475.7384338659
 20
-16.2465101526
 30
0.0
 11
770.7384338659
 21
-16.2465101526
 31
0.0
  0
LINE
  5
A0
330
1F
100
AcDbEntity
  8
0
  6
Continuous
 62
     7
370
    25
100
AcDbLine
 10
770.7384338659
 20
233.7534898474
 30
0.0
 11
475.7384338659
 21
233.7534898474
 31
0.0
  0
LINE
  5
A1
330
1F
100
AcDbEntity
  8
0
  6
Continuous
 62
     7
370
    25
100
AcDbLine
 10
1065.7384338659
 20
233.7534898474
 30
0.0
 11
770.7384338659
 21
233.7534898474
 31
0.0
  0
LINE
  5
A2
330
1F
100
AcDbEntity
  8
0
  6
Continuous
 62
     7
370
    25
100
AcDbLine
 10
1065.7384338659
 20
233.7534898474
 30
0.0
 11
1065.7384338659
 21
-16.2465101526
 31
0.0
  0
LINE
  5
A3
330
1F
100
AcDbEntity
  8
0
  6
Continuous
 62
     7
370
    25
100
AcDbLine
 10
475.7384338659
 20
233.7534898474
 30
0.0
 11
475.7384338659
 21
-16.2465101526
 31
0.0
  0
LINE
  5
A4
330
1F
100
AcDbEntity
  8
0
  6
Continuous
 62
     7
370
    25
100
AcDbLine
 10
715.0394316694
 20
-303.0733593889
 30
0.0
 11
568.9378520091
 21
-218.7307127348
 31
0.0
  0
LINE
  5
A5
330
1F
100
AcDbEntity
  8
0
  6
Continuous
 62
     7
370
    25
100
AcDbLine
 10
986.1308529092
 20
-459.5711057225
 30
0.0
 11
965.0597501616
 21
-447.4070170262
 31
0.0
  0
LINE
  5
A6
330
1F
100
AcDbEntity
  8
0
  6
Continuous
 62
     7
370
    25
100
AcDbLine
 10
443.9480104296
 20
-435.2429283299
 30
0.0
 11
861.1410113297
 21
-676.0833213176
 31
0.0
  0
LINE
  5
A7
330
1F
100
AcDbEntity
  8
0
  6
Continuous
 62
     7
370
    25
100
AcDbLine
 10
840.0292732489
 20
-519.5855749841
 30
0.0
 11
984.0095325656
 21
-436.4675404977
 31
0.0
  0
LINE
  5
A8
330
1F
100
AcDbEntity
  8
0
  6
Continuous
 62
     7
370
    25
100
AcDbLine
 10
859.0196909861
 20
-219.9553249025
 30
0.0
 11
715.0394316694
 21
-303.0733593889
 31
0.0
  0
LINE
  5
A9
330
1F
100
AcDbEntity
  8
0
  6
Continuous
 62
     7
370
    25
100
AcDbLine
 10
715.0394316694
 20
-303.0733593889
 30
0.0
 11
715.0394316694
 21
-549.4746185119
 31
0.0
  0
ELLIPSE
  5
AA
330
1F
100
AcDbEntity
  8
0
  6
Continuous
 62
     7
370
    25
100
AcDbEllipse
 10
715.0394316694
 20
-447.4070170262
 30
0.0
 11
176.7766952966368
 21
2.273736754432321E-13
 31
0.0
210
0.0
220
0.0
230
1.0
 40
0.5773815452
 41
4.712388980384697
 42
5.497705879720051
  0
LWPOLYLINE
  5
AB
330
1F
100
AcDbEntity
  8
0
  6
Continuous
 62
     7
370
    25
100
AcDbPolyline
 90
      119
 70
   128
 43
0.0
 10
594.8312788677
 20
-275.9613135434
 10
594.7060056805
 20
-270.6013724831
 10
594.3305412192
 20
-265.4012621013
 10
593.7059497787
 20
-260.375722676
 10
592.8340018313
 20
-255.5389996446
 10
591.7171690081
 20
-250.904803224
 10
590.3586170932
 20
-246.4862695476
 10
588.7621970495
 20
-242.295923429
 10
586.9324341031
 20
-238.3456428596
 10
584.8745149159
 20
-234.6466253389
 10
582.5942728835
 20
-231.2093561339
 10
580.0981715994
 20
-228.0435785577
 10
577.3932865342
 20
-225.1582663506
 10
574.4872849783
 20
-222.5615982437
 10
571.3884043089
 20
-220.2609347748
 10
568.1054286399
 20
-218.2627974245
 10
564.6476639226
 20
-216.5728501301
 10
561.0249115666
 20
-215.1958832309
 10
557.2474406573
 20
-214.1357998893
 10
553.3259588462
 20
-213.3956050264
 10
549.2715819996
 20
-212.9773968053
 10
545.0958026893
 20
-212.8823606824
 10
540.8104576152
 20
-213.110766048
 10
536.4276940537
 20
-213.6619654622
 10
531.9599354241
 20
-214.5343964905
 10
527.4198460738
 20
-215.7255861324
 10
522.8202953793
 20
-217.2321578312
 10
518.1743212667
 20
-219.049841046
 10
513.4950932545
 20
-221.173483356
 10
508.7958751228
 20
-223.5970650666
 10
504.089987316
 20
-226.3137162719
 10
499.3907691843
 20
-229.3157363291
 10
494.711541172
 20
-232.594615686
 10
490.0655670595
 20
-236.141060003
 10
485.466016365
 20
-239.9450164982
 10
480.9259270147
 20
-243.9957024438
 10
476.4581683851
 20
-248.2816357303
 10
472.0754048236
 20
-252.7906674141
 10
467.7900597495
 20
-257.5100161551
 10
463.6142804391
 20
-262.4263044466
 10
459.5599035926
 20
-267.5255965351
 10
455.6384217815
 20
-272.7934379233
 10
451.8609508721
 20
-278.2148963425
 10
448.2381985162
 20
-283.7746040796
 10
444.7804337989
 20
-289.4568015392
 10
441.4974581299
 20
-295.2453819151
 10
438.3985774605
 20
-301.1239368473
 10
435.4925759046
 20
-307.0758029333
 10
432.7876908393
 20
-313.0841089619
 10
430.2915895553
 20
-319.1318237369
 10
428.0113475228
 20
-325.2018043538
 10
425.9534283356
 20
-331.276844793
 10
424.1236653893
 20
-337.3397246923
 10
422.5272453456
 20
-343.3732581599
 10
421.1686934307
 20
-349.3603424898
 10
420.0518606075
 20
-355.2840066409
 10
419.1799126601
 20
-361.1274593435
 10
418.5553212196
 20
-366.8741366962
 10
418.1798567583
 20
-372.5077491176
 10
418.0545835711
 20
-378.0123275213
 10
418.1798567583
 20
-383.3722685816
 10
418.5553212196
 20
-388.5723789634
 10
419.1799126601
 20
-393.5979183887
 10
420.0518606075
 20
-398.4346414201
 10
421.1686934307
 20
-403.0688378407
 10
422.5272453456
 20
-407.4873715171
 10
424.1236653893
 20
-411.6777176357
 10
425.9534283356
 20
-415.6279982051
 10
428.0113475228
 20
-419.3270157258
 10
430.2915895553
 20
-422.7642849308
 10
432.7876908393
 20
-425.930062507
 10
435.4925759046
 20
-428.8153747141
 10
438.3985774605
 20
-431.412042821
 10
441.4974581299
 20
-433.7127062899
 10
444.7804337989
 20
-435.7108436402
 10
448.2381985162
 20
-437.4007909346
 10
451.8609508721
 20
-438.7777578337
 10
455.6384217815
 20
-439.8378411754
 10
459.5599035926
 20
-440.5780360382
 10
463.6142804391
 20
-440.9962442594
 10
467.7900597495
 20
-441.0912803823
 10
472.0754048236
 20
-440.8628750167
 10
476.4581683851
 20
-440.3116756025
 10
480.9259270147
 20
-439.4392445741
 10
485.466016365
 20
-438.2480549323
 10
490.0655670595
 20
-436.7414832335
 10
494.711541172
 20
-434.9238000187
 10
499.3907691843
 20
-432.8001577087
 10
504.089987316
 20
-430.3765759981
 10
508.7958751228
 20
-427.6599247928
 10
513.4950932545
 20
-424.6579047356
 10
518.1743212667
 20
-421.3790253787
 10
522.8202953793
 20
-417.8325810617
 10
527.4198460738
 20
-414.0286245665
 10
531.9599354241
 20
-409.9779386209
 10
536.4276940537
 20
-405.6920053344
 10
540.8104576152
 20
-401.1829736506
 10
545.0958026893
 20
-396.4636249096
 10
549.2715819996
 20
-391.5473366181
 10
553.3259588462
 20
-386.4480445296
 10
557.2474406573
 20
-381.1802031414
 10
561.0249115666
 20
-375.7587447222
 10
564.6476639226
 20
-370.1990369851
 10
568.1054286399
 20
-364.5168395255
 10
571.3884043089
 20
-358.7282591496
 10
574.4872849783
 20
-352.8497042174
 10
577.3932865342
 20
-346.8978381314
 10
580.0981715994
 20
-340.8895321028
 10
582.5942728835
 20
-334.8418173278
 10
584.8745149159
 20
-328.7718367109
 10
586.9324341031
 20
-322.6967962717
 10
588.7621970495
 20
-316.6339163724
 10
590.3586170932
 20
-310.6003829048
 10
591.7171690081
 20
-304.6132985749
 10
592.8340018313
 20
-298.6896344238
 10
593.7059497787
 20
-292.8461817212
 10
594.3305412192
 20
-287.0995043685
 10
594.7060056805
 20
-281.4658919471
 10
594.8312788677
 20
-275.9613135434
  0
LWPOLYLINE
  5
AC
330
1F
100
AcDbEntity
  8
0
  6
Continuous
 62
     7
370
    25
100
AcDbPolyline
 90
       16
 70
   128
 43
0.0
 10
1012.0242797678
 20
-516.8017065311
 10
1011.8990065805
 20
-511.4417654708
 10
1011.5235421192
 20
-506.241655089
 10
1010.8989506787
 20
-501.2161156637
 10
1010.0270027313
 20
-496.3793926323
 10
1008.9101699082
 20
-491.7451962117
 10
1007.5516179932
 20
-487.3266625353
 10
1005.9551979496
 20
-483.1363164167
 10
1004.1254350032
 20
-479.1860358473
 10
1002.067515816
 20
-475.4870183266
 10
999.7872737835
 20
-472.0497491216
 10
997.2911724995
 20
-468.8839715454
 10
994.5862874342
 20
-465.9986593383
 10
991.6802858783
 20
-463.4019912314
 10
988.5814052089
 20
-461.1013277625
 10
986.1308529092
 20
-459.5711057225
  0
LWPOLYLINE
  5
AD
330
1F
100
AcDbEntity
  8
0
  6
Continuous
 62
     7
370
    25
100
AcDbPolyline
 90
       46
 70
   128
 43
0.0
 10
861.1410113297
 20
-676.0833213176
 10
861.9734346989
 20
-676.5512366279
 10
865.4311994163
 20
-678.2411839223
 10
869.0539517722
 20
-679.6181508214
 10
872.8314226815
 20
-680.6782341631
 10
876.7529044926
 20
-681.4184290259
 10
880.8072813392
 20
-681.8366372471
 10
884.9830606496
 20
-681.93167337
 10
889.2684057236
 20
-681.7032680044
 10
893.6511692852
 20
-681.1520685902
 10
898.1189279147
 20
-680.2796375618
 10
902.659017265
 20
-679.08844792
 10
907.2585679595
 20
-677.5818762212
 10
911.9045420721
 20
-675.7641930064
 10
916.5837700843
 20
-673.6405506964
 10
921.282988216
 20
-671.2169689858
 10
925.9888760229
 20
-668.5003177805
 10
930.6880941546
 20
-665.4982977233
 10
935.3673221668
 20
-662.2194183664
 10
940.0132962794
 20
-658.6729740494
 10
944.6128469739
 20
-654.8690175542
 10
949.1529363242
 20
-650.8183316086
 10
953.6206949537
 20
-646.5323983221
 10
958.0034585153
 20
-642.0233666383
 10
962.2888035893
 20
-637.3040178973
 10
966.4645828997
 20
-632.3877296058
 10
970.5189597463
 20
-627.2884375173
 10
974.4404415574
 20
-622.0205961291
 10
978.2179124667
 20
-616.5991377099
 10
981.8406648226
 20
-611.0394299728
 10
985.29842954
 20
-605.3572325132
 10
988.5814052089
 20
-599.5686521373
 10
991.6802858783
 20
-593.6900972051
 10
994.5862874342
 20
-587.7382311191
 10
997.2911724995
 20
-581.7299250905
 10
999.7872737835
 20
-575.6822103155
 10
1002.067515816
 20
-569.6122296986
 10
1004.1254350032
 20
-563.5371892594
 10
1005.9551979496
 20
-557.4743093601
 10
1007.5516179932
 20
-551.4407758925
 10
1008.9101699082
 20
-545.4536915626
 10
1010.0270027313
 20
-539.5300274115
 10
1010.8989506787
 20
-533.6865747089
 10
1011.5235421192
 20
-527.9398973562
 10
1011.8990065805
 20
-522.3062849348
 10
1012.0242797678
 20
-516.8017065311
  0
LWPOLYLINE
  5
AE
330
1F
100
AcDbEntity
  8
0
  6
Continuous
 62
     7
370
    25
100
AcDbPolyline
 90
      112
 70
   128
 43
0.0
 10
584.3660985061
 20
-282.0027335709
 10
584.2412928078
 20
-276.9840011744
 10
583.867275503
 20
-272.125442883
 10
583.2452446819
 20
-267.4426221234
 10
582.3771928968
 20
-262.9505393825
 10
581.2659007793
 20
-258.6635841555
 10
579.914928133
 20
-254.5954888523
 10
578.3286025305
 20
-250.7592848088
 10
576.5120054512
 20
-247.1672605428
 10
574.4709560029
 20
-243.8309223911
 10
572.2119922826
 20
-240.7609576506
 10
569.7423504319
 20
-237.9672003439
 10
567.0699414582
 20
-235.4585997178
 10
564.2033258932
 20
-233.2431915766
 10
561.1516863708
 20
-231.3280725402
 10
557.9247982122
 20
-229.7193773124
 10
554.5329981132
 20
-228.422259029
 10
550.987151032
 20
-227.4408727508
 10
547.2986153857
 20
-226.778362154
 10
543.479206666
 20
-226.4368494598
 10
539.5411595906
 20
-226.4174286362
 10
535.4970889114
 20
-226.7201618941
 10
531.359949006
 20
-227.3440794875
 10
527.1429923808
 20
-228.2871828202
 10
522.8597272191
 20
-229.5464508481
 10
518.5238741106
 20
-231.1178497559
 10
514.1493220999
 20
-232.9963458793
 10
509.7500841959
 20
-235.1759218287
 10
505.3402524839
 20
-237.6495957654
 10
500.9339529843
 20
-240.4094437661
 10
496.5453004029
 20
-243.4466252054
 10
492.1883529168
 20
-246.7514110756
 10
487.8770671424
 20
-250.3132151514
 10
483.6252534278
 20
-254.1206279003
 10
479.4465316142
 20
-258.1614530316
 10
475.3542874072
 20
-262.4227465642
 10
471.3616294988
 20
-266.8908582902
 10
467.481347576
 20
-271.5514755006
 10
463.7258713515
 20
-276.3896688336
 10
460.107230748
 20
-281.3899400973
 10
456.6370173621
 20
-286.5362719153
 10
453.3263473335
 20
-291.8121790354
 10
450.1858257365
 20
-297.2007611364
 10
447.2255126084
 20
-302.6847569655
 10
444.4548907248
 20
-308.2465996307
 10
441.8828352227
 20
-313.8684728731
 10
439.5175851713
 20
-319.5323681379
 10
437.3667171797
 20
-325.2201422611
 10
435.4371211264
 20
-330.9135755874
 10
433.7349780894
 20
-336.5944303334
 10
432.2657405458
 20
-342.2445090088
 10
431.0341149066
 20
-347.8457127082
 10
430.0440464399
 20
-353.3800990875
 10
429.2987066335
 20
-358.8299398387
 10
428.8004830356
 20
-364.1777774788
 10
428.5509716064
 20
-369.4064812716
 10
428.5509716064
 20
-374.4993021027
 10
428.8004830356
 20
-379.4399261314
 10
429.2987066335
 20
-384.2125270496
 10
430.0440464399
 20
-388.8018167777
 10
431.0341149066
 20
-393.1930944371
 10
432.2657405458
 20
-397.3722934416
 10
433.7349780894
 20
-401.326026557
 10
435.4371211264
 20
-405.041628784
 10
437.3667171797
 20
-408.5071979286
 10
439.5175851713
 20
-411.711632728
 10
441.8828352227
 20
-414.6446684115
 10
444.4548907248
 20
-417.2969095816
 10
447.2255126084
 20
-419.6598603102
 10
450.1858257365
 20
-421.7259513538
 10
453.3263473335
 20
-423.4885643999
 10
456.6370173621
 20
-424.9420532674
 10
460.107230748
 20
-426.0817619935
 10
463.7258713515
 20
-426.9040397474
 10
467.481347576
 20
-427.4062525255
 10
471.3616294988
 20
-427.586791589
 10
475.3542874072
 20
-427.4450786168
 10
479.4465316142
 20
-426.9815675583
 10
483.6252534278
 20
-426.1977431791
 10
487.8770671424
 20
-425.0961163051
 10
492.1883529168
 20
-423.6802157792
 10
496.5453004029
 20
-421.9545771576
 10
500.9339529843
 20
-419.9247281811
 10
505.3402524839
 20
-417.597171068
 10
509.7500841959
 20
-414.9793616853
 10
514.1493220999
 20
-412.0796856657
 10
518.5238741106
 20
-408.9074315458
 10
522.8597272191
 20
-405.4727610117
 10
527.1429923808
 20
-401.7866763487
 10
531.359949006
 20
-397.8609851971
 10
535.4970889114
 20
-393.7082627294
 10
539.5411595906
 20
-389.3418113675
 10
543.479206666
 20
-384.7756181714
 10
547.2986153857
 20
-380.0243100346
 10
550.987151032
 20
-375.1031068294
 10
554.5329981132
 20
-370.0277726534
 10
557.9247982122
 20
-364.8145653319
 10
561.1516863708
 20
-359.4801843397
 10
564.2033258932
 20
-354.0417173073
 10
567.0699414582
 20
-348.5165852841
 10
569.7423504319
 20
-342.9224869338
 10
572.2119922826
 20
-337.2773418397
 10
574.4709560029
 20
-331.5992331036
 10
576.5120054512
 20
-325.9063494194
 10
578.3286025305
 20
-320.21692681
 10
579.914928133
 20
-314.5491902112
 10
581.2659007793
 20
-308.9212950918
 10
582.3771928968
 20
-303.3512692968
 10
583.2452446819
 20
-297.8569552979
 10
583.867275503
 20
-292.4559530393
 10
584.2412928078
 20
-287.1655635595
 10
584.3660985061
 20
-282.0027335709
  0
LWPOLYLINE
  5
AF
330
1F
100
AcDbEntity
  8
0
  6
Continuous
 62
     7
370
    25
100
AcDbPolyline
 90
      119
 70
   128
 43
0.0
 10
1009.9029594242
 20
-379.236939689
 10
1009.777686237
 20
-373.7323612854
 10
1009.4022217757
 20
-368.0987488639
 10
1008.7776303352
 20
-362.3520715113
 10
1007.9056823878
 20
-356.5086188086
 10
1006.7888495646
 20
-350.5849546575
 10
1005.4302976497
 20
-344.5978703276
 10
1003.833877606
 20
-338.56433686
 10
1002.0041146596
 20
-332.5014569607
 10
999.9461954724
 20
-326.4264165215
 10
997.66595344
 20
-320.3564359047
 10
995.1698521559
 20
-314.3087211296
 10
992.4649670907
 20
-308.300415101
 10
989.5589655348
 20
-302.3485490151
 10
986.4600848654
 20
-296.4699940828
 10
983.1771091964
 20
-290.6814137069
 10
979.7193444791
 20
-284.9992162474
 10
976.0965921232
 20
-279.4395085102
 10
972.3191212138
 20
-274.0180500911
 10
968.3976394027
 20
-268.7502087028
 10
964.3432625561
 20
-263.6509166143
 10
960.1674832458
 20
-258.7346283229
 10
955.8821381717
 20
-254.0152795819
 10
951.4993746102
 20
-249.506247898
 10
947.0316159806
 20
-245.2203146115
 10
942.4915266303
 20
-241.169628666
 10
937.8919759358
 20
-237.3656721707
 10
933.2460018233
 20
-233.8192278537
 10
928.566773811
 20
-230.5403484968
 10
923.8675556793
 20
-227.5383284397
 10
919.1616678725
 20
-224.8216772343
 10
914.4624497408
 20
-222.3980955238
 10
909.7832217285
 20
-220.2744532137
 10
905.137247616
 20
-218.456769999
 10
900.5376969215
 20
-216.9501983001
 10
895.9976075712
 20
-215.7590086583
 10
891.5298489416
 20
-214.88657763
 10
887.1470853801
 20
-214.3353782157
 10
882.861740306
 20
-214.1069728501
 10
878.6859609956
 20
-214.202008973
 10
874.6315841491
 20
-214.6202171942
 10
870.710102338
 20
-215.360412057
 10
866.9326314286
 20
-216.4204953987
 10
863.3098790727
 20
-217.7974622978
 10
859.8521143554
 20
-219.4874095922
 10
856.5691386864
 20
-221.4855469425
 10
853.470258017
 20
-223.7862104114
 10
850.5642564611
 20
-226.3828785183
 10
847.8593713958
 20
-229.2681907254
 10
845.3632701118
 20
-232.4339683017
 10
843.0830280793
 20
-235.8712375067
 10
841.0251088921
 20
-239.5702550274
 10
839.1953459458
 20
-243.5205355967
 10
837.5989259021
 20
-247.7108817153
 10
836.2403739872
 20
-252.1294153918
 10
835.123541164
 20
-256.7636118123
 10
834.2515932166
 20
-261.6003348437
 10
833.6270017761
 20
-266.625874269
 10
833.2515373148
 20
-271.8259846508
 10
833.1262641276
 20
-277.1859257112
 10
833.2515373148
 20
-282.6905041148
 10
833.6270017761
 20
-288.3241165362
 10
834.2515932166
 20
-294.0707938889
 10
835.123541164
 20
-299.9142465916
 10
836.2403739872
 20
-305.8379107426
 10
837.5989259021
 20
-311.8249950725
 10
839.1953459458
 20
-317.8585285402
 10
841.0251088921
 20
-323.9214084395
 10
843.0830280793
 20
-329.9964488786
 10
845.3632701118
 20
-336.0664294955
 10
847.8593713958
 20
-342.1141442705
 10
850.5642564611
 20
-348.1224502991
 10
853.470258017
 20
-354.0743163851
 10
856.5691386864
 20
-359.9528713174
 10
859.8521143554
 20
-365.7414516932
 10
863.3098790727
 20
-371.4236491528
 10
866.9326314286
 20
-376.9833568899
 10
870.710102338
 20
-382.4048153091
 10
874.6315841491
 20
-387.6726566973
 10
878.6859609956
 20
-392.7719487859
 10
882.861740306
 20
-397.6882370773
 10
887.1470853801
 20
-402.4075858183
 10
891.5298489416
 20
-406.9166175021
 10
895.9976075712
 20
-411.2025507886
 10
900.5376969215
 20
-415.2532367342
 10
905.137247616
 20
-419.0571932295
 10
909.7832217285
 20
-422.6036375464
 10
914.4624497408
 20
-425.8825169034
 10
919.1616678725
 20
-428.8845369605
 10
923.8675556793
 20
-431.6011881658
 10
928.566773811
 20
-434.0247698764
 10
933.2460018233
 20
-436.1484121865
 10
937.8919759358
 20
-437.9660954012
 10
942.4915266303
 20
-439.4726671001
 10
947.0316159806
 20
-440.6638567419
 10
951.4993746102
 20
-441.5362877702
 10
955.8821381717
 20
-442.0874871845
 10
960.1674832458
 20
-442.31589255
 10
964.3432625562
 20
-442.2208564272
 10
968.3976394027
 20
-441.802648206
 10
972.3191212138
 20
-441.0624533432
 10
976.0965921232
 20
-440.0023700015
 10
979.7193444791
 20
-438.6254031023
 10
983.1771091964
 20
-436.935455808
 10
986.4600848654
 20
-434.9373184576
 10
989.5589655348
 20
-432.6366549887
 10
992.4649670907
 20
-430.0399868818
 10
995.1698521559
 20
-427.1546746748
 10
997.66595344
 20
-423.9888970985
 10
999.9461954724
 20
-420.5516278935
 10
1002.0041146596
 20
-416.8526103728
 10
1003.833877606
 20
-412.9023298034
 10
1005.4302976497
 20
-408.7119836848
 10
1006.7888495646
 20
-404.2934500084
 10
1007.9056823878
 20
-399.6592535879
 10
1008.7776303352
 20
-394.8225305565
 10
1009.4022217757
 20
-389.7969911311
 10
1009.777686237
 20
-384.5968807493
 10
1009.9029594242
 20
-379.236939689
  0
LWPOLYLINE
  5
B0
330
1F
100
AcDbEntity
  8
0
  6
Continuous
 62
     7
370
    25
100
AcDbPolyline
 90
      112
 70
   128
 43
0.0
 10
999.4377790626
 20
-373.1955196615
 10
999.3129733643
 20
-368.0326896729
 10
998.9389560595
 20
-362.7423001931
 10
998.3169252384
 20
-357.3412979345
 10
997.4488734533
 20
-351.8469839356
 10
996.3375813358
 20
-346.2769581406
 10
994.9866086895
 20
-340.6490630213
 10
993.4002830871
 20
-334.9813264224
 10
991.5836860077
 20
-329.291903813
 10
989.5426365595
 20
-323.5990201288
 10
987.2836728391
 20
-317.9209113927
 10
984.8140309884
 20
-312.2757662987
 10
982.1416220147
 20
-306.6816679483
 10
979.2750064497
 20
-301.1565359251
 10
976.2233669273
 20
-295.7180688927
 10
972.9964787687
 20
-290.3836879005
 10
969.6046786697
 20
-285.1704805791
 10
966.0588315885
 20
-280.095146403
 10
962.3702959422
 20
-275.1739431978
 10
958.5508872225
 20
-270.422635061
 10
954.6128401471
 20
-265.8564418649
 10
950.5687694679
 20
-261.489990503
 10
946.4316295625
 20
-257.3372680353
 10
942.2146729373
 20
-253.4115768838
 10
937.9314077756
 20
-249.7254922208
 10
933.5955546671
 20
-246.2908216867
 10
929.2210026564
 20
-243.1185675667
 10
924.8217647524
 20
-240.2188915471
 10
920.4119330404
 20
-237.6010821644
 10
916.0056335408
 20
-235.2735250513
 10
911.6169809594
 20
-233.2436760748
 10
907.2600334733
 20
-231.5180374533
 10
902.9487476989
 20
-230.1021369273
 10
898.6969339843
 20
-229.0005100533
 10
894.5182121707
 20
-228.2166856741
 10
890.4259679637
 20
-227.7531746156
 10
886.4333100553
 20
-227.6114616434
 10
882.5530281325
 20
-227.7920007069
 10
878.797551908
 20
-228.2942134851
 10
875.1789113045
 20
-229.1164912389
 10
871.7086979186
 20
-230.256199965
 10
868.39802789
 20
-231.7096888325
 10
865.257506293
 20
-233.4723018786
 10
862.2971931649
 20
-235.5383929222
 10
859.5265712813
 20
-237.9013436508
 10
856.9545157792
 20
-240.5535848209
 10
854.5892657278
 20
-243.4866205044
 10
852.4383977362
 20
-246.6910553038
 10
850.5088016829
 20
-250.1566244484
 10
848.8066586459
 20
-253.8722266754
 10
847.3374211023
 20
-257.8259597908
 10
846.1057954631
 20
-262.0051587953
 10
845.1157269964
 20
-266.3964364547
 10
844.37038719
 20
-270.9857261828
 10
843.8721635921
 20
-275.758327101
 10
843.622652163
 20
-280.6989511297
 10
843.622652163
 20
-285.7917719608
 10
843.8721635921
 20
-291.0204757537
 10
844.37038719
 20
-296.3683133938
 10
845.1157269964
 20
-301.8181541449
 10
846.1057954631
 20
-307.3525405242
 10
847.3374211023
 20
-312.9537442236
 10
848.8066586459
 20
-318.603822899
 10
850.5088016829
 20
-324.284677645
 10
852.4383977362
 20
-329.9781109713
 10
854.5892657278
 20
-335.6658850945
 10
856.9545157792
 20
-341.3297803593
 10
859.5265712813
 20
-346.9516536017
 10
862.2971931649
 20
-352.5134962669
 10
865.257506293
 20
-357.997492096
 10
868.39802789
 20
-363.3860741971
 10
871.7086979186
 20
-368.6619813172
 10
875.1789113045
 20
-373.8083131352
 10
878.797551908
 20
-378.8085843988
 10
882.5530281325
 20
-383.6467777318
 10
886.4333100553
 20
-388.3073949423
 10
890.4259679637
 20
-392.7755066682
 10
894.5182121707
 20
-397.0368002008
 10
898.6969339843
 20
-401.0776253321
 10
902.9487476989
 20
-404.8850380811
 10
907.2600334733
 20
-408.4468421568
 10
911.6169809594
 20
-411.7516280271
 10
916.0056335408
 20
-414.7888094664
 10
920.4119330404
 20
-417.548657467
 10
924.8217647524
 20
-420.0223314037
 10
929.2210026564
 20
-422.2019073532
 10
933.5955546671
 20
-424.0804034765
 10
937.9314077756
 20
-425.6518023843
 10
942.2146729373
 20
-426.9110704122
 10
946.4316295625
 20
-427.854173745
 10
950.5687694679
 20
-428.4780913384
 10
954.6128401471
 20
-428.7808245962
 10
958.5508872225
 20
-428.7614037727
 10
962.3702959422
 20
-428.4198910784
 10
966.0588315885
 20
-427.7573804816
 10
969.6046786697
 20
-426.7759942035
 10
972.9964787688
 20
-425.47887592
 10
976.2233669273
 20
-423.8701806922
 10
979.2750064497
 20
-421.9550616559
 10
982.1416220147
 20
-419.7396535146
 10
984.8140309884
 20
-417.2310528885
 10
987.2836728391
 20
-414.4372955818
 10
989.5426365595
 20
-411.3673308413
 10
991.5836860077
 20
-408.0309926896
 10
993.4002830871
 20
-404.4389684237
 10
994.9866086895
 20
-400.6027643801
 10
996.3375813358
 20
-396.5346690769
 10
997.4488734533
 20
-392.2477138499
 10
998.3169252384
 20
-387.755631109
 10
998.9389560595
 20
-383.0728103495
 10
999.3129733643
 20
-378.214252058
 10
999.4377790626
 20
-373.1955196615
  0
LINE
  5
B1
330
1F
100
AcDbEntity
  8
0
  6
Continuous
 62
     7
370
    25
100
AcDbLine
 10
-505.2711713527
 20
233.7534898474
 30
0.0
 11
-800.2711713527
 21
233.7534898474
 31
0.0
  0
LINE
  5
B2
330
1F
100
AcDbEntity
  8
0
  6
Continuous
 62
     7
370
    25
100
AcDbLine
 10
-210.2711713527
 20
233.7534898474
 30
0.0
 11
-505.2711713527
 21
233.7534898474
 31
0.0
  0
LINE
  5
B3
330
1F
100
AcDbEntity
  8
0
  6
Continuous
 62
     7
370
    25
100
AcDbLine
 10
-505.2711713527
 20
-16.2465101526
 30
0.0
 11
-210.2711713527
 21
-16.2465101526
 31
0.0
  0
LINE
  5
B4
330
1F
100
AcDbEntity
  8
0
  6
Continuous
 62
     7
370
    25
100
AcDbLine
 10
-800.2711713527
 20
-16.2465101526
 30
0.0
 11
-505.2711713527
 21
-16.2465101526
 31
0.0
  0
CIRCLE
  5
B5
330
1F
100
AcDbEntity
  8
0
  6
Continuous
 62
     7
370
    25
100
AcDbCircle
 10
-505.2711713527
 20
108.7534898474
 30
0.0
 40
110.2
  0
CIRCLE
  5
B6
330
1F
100
AcDbEntity
  8
0
  6
Continuous
 62
     7
370
    25
100
AcDbCircle
 10
-505.2711713527
 20
108.7534898474
 30
0.0
 40
125.0
  0
LINE
  5
B7
330
1F
100
AcDbEntity
  8
0
  6
Continuous
 62
     7
370
    25
100
AcDbLine
 10
-800.2711713527
 20
108.7534898474
 30
0.0
 11
-800.2711713527
 21
233.7534898474
 31
0.0
  0
LINE
  5
B8
330
1F
100
AcDbEntity
  8
0
  6
Continuous
 62
     7
370
    25
100
AcDbLine
 10
-800.2711713527
 20
-16.2465101526
 30
0.0
 11
-800.2711713527
 21
108.7534898474
 31
0.0
  0
LINE
  5
B9
330
1F
100
AcDbEntity
  8
0
  6
Continuous
 62
     7
370
    25
100
AcDbLine
 10
-210.2711713527
 20
108.7534898474
 30
0.0
 11
-210.2711713527
 21
233.7534898474
 31
0.0
  0
LINE
  5
BA
330
1F
100
AcDbEntity
  8
0
  6
Continuous
 62
     7
370
    25
100
AcDbLine
 10
-210.2711713527
 20
-16.2465101526
 30
0.0
 11
-210.2711713527
 21
108.7534898474
 31
0.0
  0
INSERT
  5
C6
330
1F
100
AcDbEntity
  8
FORMAT
100
AcDbBlockReference
  2
SW_CENTERMARKSYMBOL_1
 10
-505.2711713527
 20
108.7534898474
 30
0.0
  0
LINE
  5
C7
330
1F
100
AcDbEntity
  8
0
  6
Continuous
 62
     7
370
    25
100
AcDbLine
 10
-94.8348117741
 20
-160.058158848
 30
0.0
 11
-94.8348117741
 21
-750.058158848
 31
0.0
  0
LINE
  5
C8
330
1F
100
AcDbEntity
  8
0
  6
Continuous
 62
     7
370
    25
100
AcDbLine
 10
155.1651882259
 20
-330.058158848
 30
0.0
 11
155.1651882259
 21
-160.058158848
 31
0.0
  0
LINE
  5
C9
330
1F
100
AcDbEntity
  8
0
  6
Continuous
 62
     7
370
    25
100
AcDbLine
 10
155.1651882259
 20
-750.058158848
 30
0.0
 11
155.1651882259
 21
-580.058158848
 31
0.0
  0
LINE
  5
CA
330
1F
100
AcDbEntity
  8
0
  6
Continuous
 62
     7
370
    25
100
AcDbLine
 10
155.1651882259
 20
-580.058158848
 30
0.0
 11
322.1651882259
 21
-580.058158848
 31
0.0
  0
LINE
  5
CB
330
1F
100
AcDbEntity
  8
0
  6
Continuous
 62
     7
370
    25
100
AcDbLine
 10
322.1651882259
 20
-330.058158848
 30
0.0
 11
155.1651882259
 21
-330.058158848
 31
0.0
  0
LINE
  5
CC
330
1F
100
AcDbEntity
  8
0
  6
Continuous
 62
     7
370
    25
100
AcDbLine
 10
30.1651882259
 20
-455.058158848
 30
0.0
 11
155.1651882259
 21
-580.058158848
 31
0.0
  0
LINE
  5
CD
330
1F
100
AcDbEntity
  8
0
  6
Continuous
 62
     7
370
    25
100
AcDbLine
 10
155.1651882259
 20
-330.058158848
 30
0.0
 11
30.1651882259
 21
-455.058158848
 31
0.0
  0
LINE
  5
CE
330
1F
100
AcDbEntity
  8
0
  6
Continuous
 62
     7
370
    25
100
AcDbLine
 10
155.1651882259
 20
-750.058158848
 30
0.0
 11
-94.8348117741
 21
-750.058158848
 31
0.0
  0
LINE
  5
CF
330
1F
100
AcDbEntity
  8
0
  6
Continuous
 62
     7
370
    25
100
AcDbLine
 10
155.1651882259
 20
-160.058158848
 30
0.0
 11
-94.8348117741
 21
-160.058158848
 31
0.0
  0
LINE
  5
D0
330
1F
100
AcDbEntity
  8
0
  6
Continuous
 62
     7
370
    25
100
AcDbLine
 10
322.1651882259
 20
-330.058158848
 30
0.0
 11
322.1651882259
 21
-580.058158848
 31
0.0
  0
ENDSEC
  0
SECTION
  2
OBJECTS
  0
DICTIONARY
  5
C
330
0
100
AcDbDictionary
281
     1
  3
ACAD_GROUP
350
D
  3
ACAD_LAYOUT
350
1A
  3
ACAD_MLINESTYLE
350
17
  3
ACAD_PLOTSETTINGS
350
19
  3
ACAD_PLOTSTYLENAME
350
E
  3
ACAD_SCALELIST
350
47
  3
DWGPROPS
350
D1
  0
DICTIONARY
  5
D
102
{ACAD_REACTORS
330
C
102
}
330
C
100
AcDbDictionary
281
     1
  0
DICTIONARY
  5
1A
102
{ACAD_REACTORS
330
C
102
}
330
C
100
AcDbDictionary
281
     1
  3
Layout1
350
1E
  3
Layout2
350
26
  3
Model
350
22
  0
DICTIONARY
  5
17
102
{ACAD_REACTORS
330
C
102
}
330
C
100
AcDbDictionary
281
     1
  3
Standard
350
18
  0
DICTIONARY
  5
19
102
{ACAD_REACTORS
330
C
102
}
330
C
100
AcDbDictionary
281
     1
  0
ACDBDICTIONARYWDFLT
  5
E
102
{ACAD_REACTORS
330
C
102
}
330
C
100
AcDbDictionary
281
     1
  3
Normal
350
F
100
AcDbDictionaryWithDefault
340
F
  0
DICTIONARY
  5
47
102
{ACAD_REACTORS
330
C
102
}
330
C
100
AcDbDictionary
281
     1
  3
A0
350
48
  3
A1
350
49
  3
A2
350
4A
  3
A3
350
4B
  3
A4
350
4C
  3
A5
350
4D
  3
A6
350
4E
  3
A7
350
4F
  3
A8
350
50
  3
A9
350
51
  3
B0
350
52
  3
B1
350
53
  3
B2
350
54
  3
B3
350
55
  3
B4
350
56
  3
B5
350
57
  3
B6
350
58
  3
B7
350
59
  3
B8
350
5A
  3
B9
350
5B
  3
C0
350
5C
  3
C1
350
5D
  3
C2
350
5E
  3
C3
350
5F
  3
C4
350
60
  3
C5
350
61
  3
C6
350
62
  3
C7
350
63
  3
C8
350
64
  3
C9
350
65
  3
D0
350
66
  3
D1
350
67
  3
D2
350
68
  0
XRECORD
  5
D1
102
{ACAD_REACTORS
330
C
102
}
330
C
100
AcDbXrecord
280
     1
  1
DWGPROPS COOKIE
  2

  3

  4

  6

  7

  8
b.kav
  9

300
=
301
=
302
=
303
=
304
=
305
=
306
=
307
=
308
=
309
=
 40
0.0
 41
2459935.575574456
 42
2459935.575574629
  1

 90
        0
  0
LAYOUT
  5
1E
102
{ACAD_REACTORS
330
1A
102
}
330
1A
100
AcDbPlotSettings
  1

  2
none_device
  4

  6

 40
0.0
 41
0.0
 42
0.0
 43
0.0
 44
0.0
 45
0.0
 46
0.0
 47
0.0
 48
0.0
 49
0.0
140
0.0
141
0.0
142
1.0
143
1.0
 70
   688
 72
     1
 73
     0
 74
     5
  7

 75
    16
147
1.0
148
0.0
149
0.0
100
AcDbLayout
  1
Layout1
 70
     1
 71
     1
 10
0.0
 20
0.0
 11
420.0
 21
297.0
 12
0.0
 22
0.0
 32
0.0
 14
1.0000000000E+20
 24
1.0000000000E+20
 34
1.0000000000E+20
 15
-1.0000000000E+20
 25
-1.0000000000E+20
 35
-1.0000000000E+20
146
0.0
 13
0.0
 23
0.0
 33
0.0
 16
1.0
 26
0.0
 36
0.0
 17
0.0
 27
1.0
 37
0.0
 76
     0
330
1B
  0
LAYOUT
  5
26
102
{ACAD_REACTORS
330
1A
102
}
330
1A
100
AcDbPlotSettings
  1

  2
none_device
  4

  6

 40
0.0
 41
0.0
 42
0.0
 43
0.0
 44
0.0
 45
0.0
 46
0.0
 47
0.0
 48
0.0
 49
0.0
140
0.0
141
0.0
142
1.0
143
1.0
 70
   688
 72
     1
 73
     0
 74
     5
  7

 75
    16
147
1.0
148
0.0
149
0.0
100
AcDbLayout
  1
Layout2
 70
     1
 71
     2
 10
0.0
 20
0.0
 11
0.0
 21
0.0
 12
0.0
 22
0.0
 32
0.0
 14
0.0
 24
0.0
 34
0.0
 15
0.0
 25
0.0
 35
0.0
146
0.0
 13
0.0
 23
0.0
 33
0.0
 16
1.0
 26
0.0
 36
0.0
 17
0.0
 27
1.0
 37
0.0
 76
     0
330
23
  0
LAYOUT
  5
22
102
{ACAD_REACTORS
330
1A
102
}
330
1A
100
AcDbPlotSettings
  1

  2
none_device
  4
Letter_(8.50_x_11.00_Inches)
  6

 40
6.35
 41
6.35
 42
6.35000508
 43
6.35000508
 44
215.9
 45
279.4
 46
0.0
 47
0.0
 48
0.0
 49
0.0
140
0.0
141
0.0
142
1.0
143
1.0
 70
  1712
 72
     1
 73
     0
 74
     0
  7

 75
     0
147
1.0
148
0.0
149
0.0
100
AcDbLayout
  1
Model
 70
     1
 71
     0
 10
0.0
 20
0.0
 11
279.4
 21
215.9
 12
0.0
 22
0.0
 32
0.0
 14
0.0
 24
0.0
 34
0.0
 15
279.4
 25
215.9
 35
0.0
146
0.0
 13
0.0
 23
0.0
 33
0.0
 16
1.0
 26
0.0
 36
0.0
 17
0.0
 27
1.0
 37
0.0
 76
     0
330
1F
331
29
  0
MLINESTYLE
  5
18
102
{ACAD_REACTORS
330
17
102
}
330
17
100
AcDbMlineStyle
  2
Standard
 70
     0
  3

 62
   256
 51
90.0
 52
90.0
 71
     2
 49
0.5
 62
   256
  6
BYLAYER
 49
-0.5
 62
   256
  6
BYLAYER
  0
ACDBPLACEHOLDER
  5
F
102
{ACAD_REACTORS
330
E
102
}
330
E
  0
SCALE
  5
48
102
{ACAD_REACTORS
330
47
102
}
330
47
100
AcDbScale
 70
     0
300
1:1
140
1.0
141
1.0
290
     1
  0
SCALE
  5
49
102
{ACAD_REACTORS
330
47
102
}
330
47
100
AcDbScale
 70
     0
300
1:2
140
1.0
141
2.0
290
     0
  0
SCALE
  5
4A
102
{ACAD_REACTORS
330
47
102
}
330
47
100
AcDbScale
 70
     0
300
1:4
140
1.0
141
4.0
290
     0
  0
SCALE
  5
4B
102
{ACAD_REACTORS
330
47
102
}
330
47
100
AcDbScale
 70
     0
300
1:5
140
1.0
141
5.0
290
     0
  0
SCALE
  5
4C
102
{ACAD_REACTORS
330
47
102
}
330
47
100
AcDbScale
 70
     0
300
1:8
140
1.0
141
8.0
290
     0
  0
SCALE
  5
4D
102
{ACAD_REACTORS
330
47
102
}
330
47
100
AcDbScale
 70
     0
300
1:10
140
1.0
141
10.0
290
     0
  0
SCALE
  5
4E
102
{ACAD_REACTORS
330
47
102
}
330
47
100
AcDbScale
 70
     0
300
1:16
140
1.0
141
16.0
290
     0
  0
SCALE
  5
4F
102
{ACAD_REACTORS
330
47
102
}
330
47
100
AcDbScale
 70
     0
300
1:20
140
1.0
141
20.0
290
     0
  0
SCALE
  5
50
102
{ACAD_REACTORS
330
47
102
}
330
47
100
AcDbScale
 70
     0
300
1:30
140
1.0
141
30.0
290
     0
  0
SCALE
  5
51
102
{ACAD_REACTORS
330
47
102
}
330
47
100
AcDbScale
 70
     0
300
1:40
140
1.0
141
40.0
290
     0
  0
SCALE
  5
52
102
{ACAD_REACTORS
330
47
102
}
330
47
100
AcDbScale
 70
     0
300
1:50
140
1.0
141
50.0
290
     0
  0
SCALE
  5
53
102
{ACAD_REACTORS
330
47
102
}
330
47
100
AcDbScale
 70
     0
300
1:100
140
1.0
141
100.0
290
     0
  0
SCALE
  5
54
102
{ACAD_REACTORS
330
47
102
}
330
47
100
AcDbScale
 70
     0
300
2:1
140
2.0
141
1.0
290
     0
  0
SCALE
  5
55
102
{ACAD_REACTORS
330
47
102
}
330
47
100
AcDbScale
 70
     0
300
4:1
140
4.0
141
1.0
290
     0
  0
SCALE
  5
56
102
{ACAD_REACTORS
330
47
102
}
330
47
100
AcDbScale
 70
     0
300
8:1
140
8.0
141
1.0
290
     0
  0
SCALE
  5
57
102
{ACAD_REACTORS
330
47
102
}
330
47
100
AcDbScale
 70
     0
300
10:1
140
10.0
141
1.0
290
     0
  0
SCALE
  5
58
102
{ACAD_REACTORS
330
47
102
}
330
47
100
AcDbScale
 70
     0
300
100:1
140
100.0
141
1.0
290
     0
  0
SCALE
  5
59
102
{ACAD_REACTORS
330
47
102
}
330
47
100
AcDbScale
 70
     0
300
1/128" = 1'-0"
140
0.0078125
141
12.0
290
     0
  0
SCALE
  5
5A
102
{ACAD_REACTORS
330
47
102
}
330
47
100
AcDbScale
 70
     0
300
1/64" = 1'-0"
140
0.015625
141
12.0
290
     0
  0
SCALE
  5
5B
102
{ACAD_REACTORS
330
47
102
}
330
47
100
AcDbScale
 70
     0
300
1/32" = 1'-0"
140
0.03125
141
12.0
290
     0
  0
SCALE
  5
5C
102
{ACAD_REACTORS
330
47
102
}
330
47
100
AcDbScale
 70
     0
300
1/16" = 1'-0"
140
0.0625
141
12.0
290
     0
  0
SCALE
  5
5D
102
{ACAD_REACTORS
330
47
102
}
330
47
100
AcDbScale
 70
     0
300
3/32" = 1'-0"
140
0.09375
141
12.0
290
     0
  0
SCALE
  5
5E
102
{ACAD_REACTORS
330
47
102
}
330
47
100
AcDbScale
 70
     0
300
1/8" = 1'-0"
140
0.125
141
12.0
290
     0
  0
SCALE
  5
5F
102
{ACAD_REACTORS
330
47
102
}
330
47
100
AcDbScale
 70
     0
300
3/16" = 1'-0"
140
0.1875
141
12.0
290
     0
  0
SCALE
  5
60
102
{ACAD_REACTORS
330
47
102
}
330
47
100
AcDbScale
 70
     0
300
1/4" = 1'-0"
140
0.25
141
12.0
290
     0
  0
SCALE
  5
61
102
{ACAD_REACTORS
330
47
102
}
330
47
100
AcDbScale
 70
     0
300
3/8" = 1'-0"
140
0.375
141
12.0
290
     0
  0
SCALE
  5
62
102
{ACAD_REACTORS
330
47
102
}
330
47
100
AcDbScale
 70
     0
300
1/2" = 1'-0"
140
0.5
141
12.0
290
     0
  0
SCALE
  5
63
102
{ACAD_REACTORS
330
47
102
}
330
47
100
AcDbScale
 70
     0
300
3/4" = 1'-0"
140
0.75
141
12.0
290
     0
  0
SCALE
  5
64
102
{ACAD_REACTORS
330
47
102
}
330
47
100
AcDbScale
 70
     0
300
1" = 1'-0"
140
1.0
141
12.0
290
     0
  0
SCALE
  5
65
102
{ACAD_REACTORS
330
47
102
}
330
47
100
AcDbScale
 70
     0
300
1-1/2" = 1'-0"
140
1.5
141
12.0
290
     0
  0
SCALE
  5
66
102
{ACAD_REACTORS
330
47
102
}
330
47
100
AcDbScale
 70
     0
300
3" = 1'-0"
140
3.0
141
12.0
290
     0
  0
SCALE
  5
67
102
{ACAD_REACTORS
330
47
102
}
330
47
100
AcDbScale
 70
     0
300
6" = 1'-0"
140
6.0
141
12.0
290
     0
  0
SCALE
  5
68
102
{ACAD_REACTORS
330
47
102
}
330
47
100
AcDbScale
 70
     0
300
1'-0" = 1'-0"
140
12.0
141
12.0
290
     0
  0
ENDSEC
  0
EOF
